Twitter do SuperGospel Facebook do SuperGospel

Matérias em destaque



Espírito Santo (Tablatura de guitarra / violão)
Fernanda Brum


Solo (Introdução)


    G       C7/9    Bm7      Em   D    Db-7/5
e|--------------------------------------------|e
B|--0--0-1-3-5-----5-7------7-8-8-7-----------|B
G|-------------0-0-----4-4----------7/9-9-----|G
D|--------------------------------------------|D


       Am7   Am7/G  D/F#      Am7     Bm7 C7/9
e|------------------------|---------------------|e
B|------1---1-0--------3--|------1---1-1/3------|B
G|--2h4---4-----0h2-2-----|--2h4---0-------0-0--|G
D|------------------------|---------------------|D

            G
e|------------------------|e
B|-------------0-8-7-5-3--|B
G|--2/4-2-0-0-------------|G
D|------------------------|D


* Término da 1ª parte da música
                
                       Am7 Bm7 C7/9
Solo (introdução) + B|--1---3---5--|B


* Final

    G       C7/9 G/B  Am7  D7
B|--0--0-1-3-5----3----1------|B
G|-------------------------2--|G  +  Acorde G
D|----------------------------|D

___________________________________________________________________
Colaboração: Willer A. Silva - wsilva@elnet.com.br 

><> Supergospel.com.br - O portal da música gospel

Também para esta música: Cifra

 RECURSOS    Corrigir música | Versão para impressão | Indicar a um amigo | Compre este CD
Copyright - 2001 - 2018 Supergospel. Todos os direitos reservados.