Twitter do SuperGospel Facebook do SuperGospel

Matérias em destaque



Ele é Por Mim (Tablatura de guitarra / violão)
Fernanda Brum


Essa tablatura é bem facil !!!! 

e/-------------------------|--------------------------|
B/------------5----3--2----|---------------------5--3-|
G/-------2-4-------------4-|--2--4---------2--4-------|
D/-------------------------|--------2-----------------|
A/-------------------------|--------------------------|
E/--0----------------------|-------------0------------|

                                  
e/--------------------------------||
B/--2---------------5-3-2---------||
G/----4-2-4-----2-4-------4-2-4---||
D/----------2-------------------2-||
A/--------------------------------||
E/------------0-------------------||

___________________________________________________________________
Colaboração: Geração Enos - medicolucasL@aol.com 

><> Supergospel.com.br - O portal da música gospel

Também para esta música: Cifra

 RECURSOS    Corrigir música | Versão para impressão | Indicar a um amigo | Compre este CD
Copyright - 2001 - 2018 Supergospel. Todos os direitos reservados.